Brad's Paul Simon Guitar Tablature Page (www.bradpriddy.com/paul_simon)

............................... Surfer Girl ...............................

Copyright  Guild Music Company BMI

From An All-star Tribute to Brian Wilson.

Transcribed by John McGann.

This is the stunning cover performed by Paul for the Brian Wilson tribute
on March 29, 2001.  His treatment of this song alone is worth the price of
the DVD.  Paul plays this perfectly on his beloved Gurian.  The slide up 
to D on the seventh fret marked "%" should sound like you're riding a wave.  
Just brilliant.

[12] indicates a natural harmonic played at the 12th fret.


No capo    (see tuning info on main page)

     D                 Bm     G          A       Dmaj7     D7     G
e:|-----2--------2--|-----------------|-------0------5--|--2--0-----------|
B:|-----------------|--3------0---s8--|--5--------------|--1---------[12]-|
G:|--2--------2-----|--2--2---0-------|--6--6-----6-----|--2--------------|
D:|--0-----0--------|---------0-------|--7-------0------|--0-----[12]-----|
A:|-----------------|--2--------------|-----------------|-----------------|
E:|-----------------|-----------------|-----------------|-----------------|


     Gm                D                 Bm7               G
e:|----------3------|-----------------|-----------------|-----------------|
B:|------3-------3--|----------3------|----------3------|----------0------|
G:|--3--------------|------2----------|------2----------|------0----------|
D:|-----------------|--0-----------0--|-----------------|-----------------|
A:|-----------------|-----------------|--2-----------2--|-----------------|
E:|-----------------|-----------------|-----------------|--3-----------3--|

                               Do  you  love  me


     A                 D                 Bm7               G
e:|-----------------|-----------------|-----------------|-----------------|
B:|--------------2--|----------3------|----------3------|----------0------|
G:|----------2------|------2----------|------2----------|------0----------|
D:|------2----------|--0-----------0--|-----------------|-----------------|
A:|--0--------------|-----------------|--2-----------2--|-----------------|
E:|-----------------|-----------------|-----------------|--3-----------3--|

                              Little    surfer                    Little


     A                 Dmaj7             D7                G
e:|-----------------|--------------2--|--2--------------|-----------------|
B:|--------------0--|----------2------|--1-------1------|-------[12]------|
G:|----------0------|------2----------|--2---2----------|----[12]------0--|
D:|------2----------|--0--------------|--0--------------|-[12]------------|
A:|--0--------------|-----------------|-----------------|-----------------|
E:|-----------------|-----------------|--------------0--|-----------------|

      one              Made    my       heart     come    all    un  -  -


     Gm                D                 Bm                G
e:|----------3------|-----------------|-----------------|-----------------|
B:|------3-------3--|-----------------|-----------------|----------0------|
G:|--3--------------|-----------------|-----------------|------0----------|
D:|-----------------|--0---0----------|-----------------|-----------------|
A:|-----------------|----------4---4--|--2---2---0---0--|-----------------|
E:|-----------------|-----------------|-----------------|--3-----------3--|
   
  - done                       Do you   love     me                    Do
   

     A                 D                 Bm7               G
e:|-----------------|-----------------|-----------------|-----------------|
B:|--------------2--|----------3------|----------3------|----------0------|
G:|----------2------|------2--------2-|------2----------|------0----------|
D:|------2----------|--0----------0---|-----------------|-----------------|
A:|--0--------------|-----------------|--2-----------2--|-----------------|
E:|-----------------|-----------------|-----------------|--3-----------3--|

    you       surfer  girl                          My   little    surfer


     A                 D                 Bm7               G
e:|-----------------|-----------------|-----------------|-----------------|
B:|--------------2--|----------3------|----------3------|----------0------|
G:|----------2------|------2----------|------2----------|------0----------|
D:|------2----------|--0-----------0--|-----------------|-----------------|
A:|--0--------------|-----------------|--2-----------2--|-----------------|
E:|-----------------|-----------------|-----------------|--3-----------3--|

    girl                       I  have  seen      you      on     the


     A                 D
e:|-----------------|-----------------|-----------------|-----------------|
B:|--------------2--|--3--p2----------|-----------------|-----------------|
G:|----------2------|----------4---2--|-----0-----------|-----------------|
D:|------2----------|-----------------|------------4----|-----2------0----|
A:|--0--------------|-----------------|-----------------|-----------------|
E:|-----------------|-----------------|-----------------|-----------------|

    shore             Stand .. the ocean's roar ... ... ... ... ... ...


     D                 Bm                G                 A
e:|-----------------|-----------------|-----------------|-----------------|
B:|-----------------|-----------------|----------0------|--------------2--|
G:|-----------------|-----------------|------0----------|----------2------|
D:|--0---0----------|-----------------|-----------------|------2----------|
A:|----------4---4--|--2---2---0---0--|-----------------|--0--------------|
E:|-----------------|-----------------|--3-----------3--|-----------------|

             Do you   love     me                   Do you   surfer


     D                 G                 D
e:|-----------------|-----------------|-----------------|-----------------|
B:|----------3------|--0-------0---0--|----------3------|--1-------1------|
G:|------2----------|--0-------0------|--2-------2------|--2-------2------|
D:|--0-----------0--|------0----------|--0---0-------0--|------0-------0--|
A:|-----------------|-----------------|-----------------|-----------------|
E:|-----------------|-----------------|-----------------|-----------------|

    girl


     G                 A                 D                 %
e:|-----------------|-----------------|-----------------|-----------------|
B:|-----------------|-----------------|-----------------|--s7--7----------|
G:|--0-------0------|----------2------|------2-------0--|--s7--7-------0--|
D:|------0-------0--|------2----------|--0-------0------|--s7------0------|
A:|-----------------|--0-----------0--|-----------------|-----------------|
E:|--3--------------|-----------------|-----------------|-----------------|

               We     could       ride   the   waves   together


     G                 A                 D                 D7
e:|-----------------|-----------------|-----------------|-----------------|
B:|--0--------------|----------2------|----------3------|--1-------1------|
G:|----------0------|------2----------|------2----------|--2-------2------|
D:|------0-------0--|-----------------|--0-----------0--|------0-------0--|
A:|-----------------|--0-----------0--|-----------------|-----------------|
E:|--3--------------|-----------------|-----------------|-----------------|

          while   our  love  would  grow


     G                 A                 D                 Bm
e:|-----------------|-----------------|-----------------|-----------------|
B:|--0--------------|-----------------|-----------------|-----------------|
G:|----------0------|----------2------|-----(0)---------|-----(2)------0--|
D:|------0----------|------2-------2--|--0--------------|-----------------|
A:|-----------------|--0--------------|------------4----|--2-------0------|
E:|--3-----------3--|-----------------|-----------------|-----------------|

              I could drive     you      in        my     Woo   -  dy


     E7/G#                               A                 Bb
e:|-----------------|-----------------|-----------------|-----------------|
B:|--------------3--|----------3------|-------------2s3-|----------3---3--|
G:|----------4------|------4----------|----------2------|------3-------3--|
D:|------2----------|--2-----------2--|------2----------|--3--------------|
A:|-----------------|-----------------|--0--------------|-----------------|
E:|--4--------------|-----------------|-----------------|-----------------|

            everywhere           I       go


     Eb                Cm7               Ab                Bb
e:|-----------------|-----------------|-----------------|-----------------|
B:|----------4------|----------4------|----------1------|----------3------|
G:|------3----------|------3----------|------1----------|------3----------|
D:|--5-----------5--|-----------------|--1-----------1--|-s3-----------0--|
A:|-----------------|--3-----------3--|-----------------|-----------------|
E:|-----------------|-----------------|-----------------|-----------------|

              So  I   say        from   me           to   you


     Ebmaj7            Eb7               Ab                Abm
e:|--------------3--|--3--------------|-----------------|--7---6----4-----|
B:|----------3------|--2-------2---x--|--4-----------4--|--4--------------|
G:|------3----------|--3---3----------|----------5------|------6----4-----|
D:|--1--------------|-----------------|------6----------|-----------------|
A:|-----------------|-----------------|-----------------|-----------------|
E:|-----------------|-----------------|--4--------------|--4--------------|

                You   have   made  my  dreams        come true


     Eb/Bb             Cm7               Ab                Bb
e:|-----------------|-----------------|-----------------|-----------------|
B:|--------------4--|-----------------|----------4------|----------6------|
G:|--------------3--|------0----------|------5----------|------7----------|
D:|-----------------|-----------------|-----------------|-----------------|
A:|--1---1---2------|--3----------4---|-----------------|-----------------|
E:|-----------------|-----------------|--4----------4s6-|--6-----------6--|

             Do you  love        me              Do you  surfer


     Eb                Cm                Ab                Bb 
e:|-----------------|-----------------|-----------------|-----------------|
B:|----------8------|----------8------|----------1------|----------3------|
G:|------8----------|------8----------|------1----------|------3----------|
D:|-s8-----------8--|--10----------8--|--1-----------1--|--3-----------3--|
A:|-----------------|-----------------|-----------------|-----------------|
E:|-----------------|-----------------|-----------------|-----------------|

   girl                            My  little  surfer girl


     Eb                Cm7               Ab                Bb
e:|-----------------|-----------------|-----------------|-----------------|
B:|----------4------|----------4------|----------1------|----------3------|
G:|------3----------|------3----------|------1----------|------3----------|
D:|--5-----------5--|-----------------|--1-----------1--|--3-----------3--|
A:|-----------------|--3-----------3--|-----------------|-----------------|
E:|-----------------|-----------------|-----------------|-----------------|




     Eb                Ab                Bb                Eb
e:|-----------------|-----------------|-----------------|-----------------|
B:|--4--p3----------|----------4------|----------6------|----------4------|
G:|----------5---3--|------5----------|------7----------|------3----------|
D:|-----------------|--6-----------6--|--8-----------8--|--5-----------5--|
A:|-----------------|-----------------|-----------------|-----------------|
E:|-----------------|-----------------|-----------------|-----------------|

     Doo doo doo doo   ... ... ... ... ... ... ... ... ...


     Cm7               Ab                Bb
e:|-----------------|-----------------|-----------------|
B:|--------------4--|----------1------|----------3------|
G:|----------3------|------1----------|------3----------|
D:|------3----------|--1-----------1--|--3-----------3--|
A:|--3--------------|-----------------|-----------------|
E:|-----------------|-----------------|-----------------|


     Eb                Ab                Bb                Eb
e:|-----------------|-----------------|-----------------|-----------------|
B:|--4--p3----------|----------4------|----------6------|----------8------|
G:|----------5---3--|------5----------|------7----------|------8----------|
D:|-----------------|--6-----------6--|--8-----------8--|--8-----------8--|
A:|-----------------|-----------------|-----------------|-----------------|
E:|-----------------|-----------------|-----------------|-----------------|

     Doo doo doo doo   ... ... ... ... ... ... ... ... ...


     Cm                Ab      Bb        Eb      Ab        Bb      Eb
e:|-----------------|-----------------|-----------------|-----------------|
B:|----------8------|--1-------3------|--4-------4---6--|--6---8---8---9--|
G:|------8----------|--1-------3------|--3---5---5------|--7-------8------|
D:|--10----------Xs-|--1---1---3------|--5-------6------|--8-------8---10-|
A:|-----------------|-----------------|-----------------|-----------------|
E:|-----------------|-----------------|-----------------|-----------------|

                      Little  surfer    girl


     Fm    G7          C
e:|-----------------|--0---------0--1-|-0-------------0-|
B:|--9-----8--------|--1------3-------|----3--------1---|
G:|--10----10-------|--0---------0--2-|-0---------0-----|
D:|--10----9--------|--2------3-------|----3----2-------|
A:|-----------------|--3--------------|-------3---------|
E:|-----------------|-----------------|-----------------|


Lyrics:

Do you love me,
Little surfer, little one?
Made my heart come all undone.
Do you love me, do you surfer girl,
My little surfer girl?

I have seen you on the shore,
Standing by the ocean's roar.
Do you love me, do you surfer girl?

We could ride the waves together,
While our love would grow.
I could drive you in my Woody,
Everywhere I go.

So I say from me to you,
You have made my dreams come true.
Do you love me, do you surfer girl,
My little surfer girl?

Little surfer girl.