Brad's Paul Simon Guitar Tablature Page (www.bradpriddy.com/paul_simon)

.............................. Old Friends ...............................

Copyright  1968 Paul Simon

From the Concert in Central Park.

Transcribed by John McGann.

% indicates a repeat of the previous measure.


Capo 4th fret  (see tuning info on main page)

       Fmaj7            Cmaj7             Fmaj7             Cmaj7
e:||---0------------|----------------||---0-------------|---0-------------|
B:||---1------------|---0------------||---1-------------|---0-------------|
G:||---2------------|---0------------||---2-------------|---0-------------|
D:||---3------------|---2------------||---3-------------|---2-------------|
A:||----------------|---3------------||-----------------|---3-------------|
E:||----------------|----------------||-----------------|-----------------|

       (play these two bars 4X)          Old               friends


      Fmaj7             Cmaj7             F6                G
e:|---0-------------|---0-------------|--------0----1---|-----------------|
B:|---1-------------|---0-------------|---3-------------|---0----1----3---|
G:|---2-------------|---0-------------|--------0----2---|-----------------|
D:|---3-------------|---2-------------|---3-------------|-----------------|
A:|-----------------|---3-------------|-----------------|--------0----2---|
E:|-----------------|-----------------|-----------------|---3-------------|

     Old               friends            sat  on  their  park bench like


      C                 Am                G
e:|-----------------|-----------------|-----------------|-----------------|
B:|-----------------|-------------1---|---0----1----3---|---1----0----1---|
G:|-----------------|--------2--------|-----------------|-----------------|
D:|-----------------|-----------------|-----------------|-----------------|
A:|---3------2------|---0-------------|--------0----2---|---0---------0---|
E:|-----------------|-----------------|---3-------------|--------3--------|

      bookends                    A      news  pa - per  blown through the


      G                                   Am
e:|-----------------|-----------------|-----------------|-----------------|
B:|---0-------------|---0-------------|-------------1---|-------------1---|
G:|-------------0---|-----------------|--------2--------|--------2--------|
D:|--------0--------|--------0--------|-----------------|-----------------|
A:|-----------------|-----------------|---0-------------|---0-------------|
E:|---3-------------|-------------3---|-----------------|-----------------|

    grass             falls  on  the     round toes                of the


      G                                   Fmaj7             Cmaj7
e:|-----------------|-----------------|---0-------------|---0-------------|
B:|-----------------|-----------------|---1-------------|---0-------------|
G:|-------------0---|-------------0---|---2-------------|---0-------------|
D:|--------0--------|--------0--------|---3-------------|---2-------------|
A:|-----------------|-----------------|-----------------|---3-------------|
E:|---3-------------|---3-------------|-----------------|-----------------|

     high shoes                of the    old               friends


      Cmaj7             Fmaj7             Cmaj7
e:|---0-------------|---0-------------|---0-------------|---0-------------|
B:|---0-------------|---1-------------|---0-------------|---0-------------|
G:|---0-------------|---2-------------|---0-------------|---0-------------|
D:|---2-------------|---3-------------|---2-------------|---2-------------|
A:|---3-------------|-----------------|---3-------------|---3-------------|
E:|-----------------|-----------------|-----------------|-----------------|

                       Old               friends


                        G                 Fmaj7             Cmaj7
e:|-----------------|-----------------|---0-------------|---0-------------|
B:|-----------------|---0----1----3---|---1-------------|---0-------------|
G:|-----------------|-----------------|---2-------------|---0-------------|
D:|---3-------------|-----------------|---3-------------|---2-------------|
A:|-----------------|--------0----2---|-----------------|---3-------------|
E:|-----------------|---3-------------|-----------------|-----------------|

     Winter         companions   the     old               men


      Cmaj7             F6                G                 C
e:|---0-------------|--------0----1---|-----------------|-----------------|
B:|---0-------------|---3-------------|---0----1----3---|-----------------|
G:|---0-------------|--------0----2---|-----------------|-----------------|
D:|---2-------------|---3-------------|-----------------|-----------------|
A:|---3-------------|-----------------|--------0----2---|---3-------2-----|
E:|-----------------|-----------------|---3-------------|-----------------|

                       lost  in  their    overcoats        waiting for


      Am
e:|-----------------|-----------------|-----------------|-----------------|
B:|-------------1---|-------------1---|-------------1---|-------------1---|
G:|--------2--------|--------2--------|--------2--------|--------2--------|
D:|-----------------|---2-------------|-----------------|---2-------------|
A:|---0-------------|-----------------|---0-------------|-----------------|
E:|-----------------|-----------------|-----------------|-----------------|

       the sun                                                        the


      G                                                     Am
e:|-----------------|-----------------|-----------------|-----------------|
B:|---0----1----3---|---1----0--------|--------0--------|-------------1---|
G:|-----------------|-----------------|---0-------------|--------2--------|
D:|-----------------|-------------0---|-----------------|-----------------|
A:|--------0----2---|---0-------------|-----------------|---0-------------|
E:|---3-------------|--------3--------|-------------3---|-----------------|

    sounds of  the     city               sifting  through trees


      Am                G                                   F
e:|-----------------|-----------------|---3-------------|-----------------|
B:|-------------1---|---0-------------|--------0--------|---1-------------|
G:|--------2--------|-------------0---|-------------0---|-------------2---|
D:|---2-------------|--------0--------|-----------------|---3----3--------|
A:|-----------------|-----------------|-----------------|-----------------|
E:|-----------------|---3-------------|-----------------|-----------------|

     settles   like    dust                     on the    shoulders


      F                 Fmaj7             Cmaj7
e:|-----------------|---0-------------|---0-------------|-----------------|
B:|---1-------------|---1-------------|---0-------------|-----------------|
G:|-------------2---|---2---------2---|---0----strum----|--strum---strum--|
D:|--------3--------|---3----3--------|---2-------------|-----------------|
A:|-----------------|-----------------|---3-------------|-----------------|
E:|-----------------|-----------------|-----------------|-----------------|

            of the     old               friends


      F6                G                 C                 Am
e:|--------0----1---|-----------------|---0-------------|-----------------|
B:|---3-------------|---0----1----3---|-----------------|-------------1---|
G:|--------0----2---|-----------------|-----------------|--------2--------|
D:|---3-------------|-----------------|--------2--------|-----------------|
A:|-----------------|--------0----2---|---3---------2---|---0-------------|
E:|-----------------|---3-------------|-----------------|-----------------|

     Can  you   im  -   a - gine  us      years      from    today


                        G                                   Cmaj7
e:|-----------------|-----------------|-----------------|-----------------|
B:|-----------------|--------0--------|--------0--------|---0-------------|
G:|-----------------|---0-------------|---0-------------|-------------0---|
D:|-----0-----------|-----------------|-----------------|--------2--------|
A:|-----------------|-----------------|-----------------|---3-------------|
E:|--------3--------|-------------3---|-------------3---|-----------------|

       (pause)        sharing     a        park   bench    quietly


      Cmaj7             F6                G                 Asus2
e:|--------0--------|-----------------|-----------------|---0-------------|
B:|---0-------------|---3---------3---|---0----1----3---|---0-------------|
G:|-------------0---|--------0--------|-----------------|---2----strum----|
D:|-----------------|---3---------3---|-----------------|---2-------------|
A:|-----------------|-----------------|--------0----2---|---0-------------|
E:|-----------------|-----------------|---3-------------|-----------------|

                  how terribly         strange to   be     seventy


                        Fmaj7             Cmaj7
e:|-----------------|---0-------------|---0-------------|---0-------------|
B:|-----------------|---1-------------|---0-------------|---0-------------|
G:|--strum---strum--|---2-------------|---0-------------|---0-------------|
D:|-----------------|---3-------------|---2-------------|---2-------------|
A:|-----------------|-----------------|---3-------------|---3-------------|
E:|-----------------|-----------------|-----------------|-----------------|

                       Old               friends


      F6                G                 Fmaj7             Cmaj7
e:|--------0----1---|-----------------|---0-------------|-----------------|
B:|---3-------------|---0----1----3---|---1-------------|---0-------------|
G:|--------0----2---|-----------------|---2-------------|---0-------------|
D:|---3-------------|-----------------|---3-------------|---2-------------|
A:|-----------------|--------0----2---|-----------------|---3-------------|
E:|-----------------|---3-------------|-----------------|-----------------|

      memory           brushes   the     same              years


      Cmaj7             F6                G                 C
e:|-----------------|--------0----1---|-----------------|-----------------|
B:|---0-------------|---3-------------|---0----1----3---|-----------------|
G:|---0-------------|--------0----2---|-----------------|-----------------|
D:|---2-------------|---3-------------|-----------------|-----------------|
A:|---3-------------|-----------------|--------0----2---|---3------2------|
E:|-----------------|-----------------|---3-------------|-----------------|

                        si  lent  ly     sharing   the     same


      Am
e:|-----------------|-----------------|-----------------|
B:|-------------1---|-----------------|-------------1---|
G:|--------2--------|----------2------|--------2--------|
D:|-----------------|-----------------|-----------------|
A:|---0-------------|---0-------------|---0-------------|
E:|-----------------|-----------------|-----------------|

     fears


Repeat the following section 4X for the "Time it was ..." verse.

      F6
e:||-------0----1---|-----------------|-----------------|-----------------|
B:||--3-------------|-----------------|-----------------|-----------------|
G:||-------0----2---|--------%--------|--------%--------|--------%--------|
D:||--3-------------|-----------------|-----------------|-----------------|
A:||----------------|-----------------|-----------------|-----------------|
E:||----------------|-----------------|-----------------|-----------------|

     Time  it  was     and  what  a     time  it  was      it  was


      C                                   F
e:|---0-------------|--------0--------|-----------------|-----------------|
B:|--------1--------|---1---------1---|---3----1--------|-----1----1h3-1--|
G:|---0---------0---|--------0--------|-------------2---|-----------------|
D:|--------2--------|---2---------2---|---3----3--------|-----------------|
A:|-------------3---|-----------------|-------------3---|--3-----3--------|
E:|-----------------|-----------------|-----------------|-----------------|

                        a   time  of     in - no - cence          a time of


      C
e:|---0-------------|-------------0--||
B:|-------1------1--|--------1-------||
G:|---0------0------|---0---------0--||
D:|-------2------2--|--------2-------||
A:|----------3------|---3------------||
E:|-----------------|----------------||

     con-fi-den-ces         ...


Lyrics:

Old friends,
Old friends,
Sat on their park bench like bookends.
A newspaper blown through the grass,
Falls on the round toes,
Of the high shoes,
Of the old friends.

Old friends.
Winter companions the old men,
Lost in their overcoats waiting for the sun.
The sounds of the city sifting through trees,
Settle like dust, 
On the shoulders,
Of the old friends.

Can you imagine us years from today,
Sharing a park bench quietly?
How terribly strange to be seventy.

Old friends.
Memory brushes the same years,
Silently sharing the same fears.

Time it was, and what a time it was, it was.
A time of innocence,
A time of confidences.
Long ago, it must be.
I have a photograph.
Preserve your memories --
They're all that's left you.